ISO-10303-21;
HEADER;
/* Generated by software containing ST-Developer
 * from STEP Tools, Inc. (www.steptools.com) 
 */

FILE_DESCRIPTION(
/* description */ (''),
/* implementation_level */ '2;1');

FILE_NAME(
/* name */ 'PlatoWood 27x140 P16.step',
/* time_stamp */ '2023-01-02T17:44:26+01:00',
/* author */ (''),
/* organization */ (''),
/* preprocessor_version */ 'ST-DEVELOPER v19.2',
/* originating_system */ 'Autodesk Translation Framework v11.17.0.187',

/* authorisation */ '');

FILE_SCHEMA (('AUTOMOTIVE_DESIGN { 1 0 10303 214 3 1 1 }'));
ENDSEC;

DATA;
#10=MECHANICAL_DESIGN_GEOMETRIC_PRESENTATION_REPRESENTATION('',(#13),#587);
#11=SHAPE_REPRESENTATION_RELATIONSHIP('SRR','None',#594,#12);
#12=ADVANCED_BREP_SHAPE_REPRESENTATION('',(#14),#586);
#13=STYLED_ITEM('',(#604),#14);
#14=MANIFOLD_SOLID_BREP('Body1',#351);
#15=CYLINDRICAL_SURFACE('',#374,3.);
#16=CYLINDRICAL_SURFACE('',#377,3.);
#17=CYLINDRICAL_SURFACE('',#384,3.00000000000044);
#18=CYLINDRICAL_SURFACE('',#387,2.99999999999999);
#19=FACE_OUTER_BOUND('',#37,.T.);
#20=FACE_OUTER_BOUND('',#38,.T.);
#21=FACE_OUTER_BOUND('',#39,.T.);
#22=FACE_OUTER_BOUND('',#40,.T.);
#23=FACE_OUTER_BOUND('',#41,.T.);
#24=FACE_OUTER_BOUND('',#42,.T.);
#25=FACE_OUTER_BOUND('',#43,.T.);
#26=FACE_OUTER_BOUND('',#44,.T.);
#27=FACE_OUTER_BOUND('',#45,.T.);
#28=FACE_OUTER_BOUND('',#46,.T.);
#29=FACE_OUTER_BOUND('',#47,.T.);
#30=FACE_OUTER_BOUND('',#48,.T.);
#31=FACE_OUTER_BOUND('',#49,.T.);
#32=FACE_OUTER_BOUND('',#50,.T.);
#33=FACE_OUTER_BOUND('',#51,.T.);
#34=FACE_OUTER_BOUND('',#52,.T.);
#35=FACE_OUTER_BOUND('',#53,.T.);
#36=FACE_OUTER_BOUND('',#54,.T.);
#37=EDGE_LOOP('',(#223,#224,#225,#226,#227,#228,#229,#230,#231,#232,#233,
#234,#235,#236,#237,#238));
#38=EDGE_LOOP('',(#239,#240,#241,#242));
#39=EDGE_LOOP('',(#243,#244,#245,#246));
#40=EDGE_LOOP('',(#247,#248,#249,#250));
#41=EDGE_LOOP('',(#251,#252,#253,#254));
#42=EDGE_LOOP('',(#255,#256,#257,#258));
#43=EDGE_LOOP('',(#259,#260,#261,#262));
#44=EDGE_LOOP('',(#263,#264,#265,#266));
#45=EDGE_LOOP('',(#267,#268,#269,#270));
#46=EDGE_LOOP('',(#271,#272,#273,#274));
#47=EDGE_LOOP('',(#275,#276,#277,#278));
#48=EDGE_LOOP('',(#279,#280,#281,#282));
#49=EDGE_LOOP('',(#283,#284,#285,#286));
#50=EDGE_LOOP('',(#287,#288,#289,#290));
#51=EDGE_LOOP('',(#291,#292,#293,#294));
#52=EDGE_LOOP('',(#295,#296,#297,#298));
#53=EDGE_LOOP('',(#299,#300,#301,#302));
#54=EDGE_LOOP('',(#303,#304,#305,#306,#307,#308,#309,#310,#311,#312,#313,
#314,#315,#316,#317,#318));
#55=CIRCLE('',#366,3.);
#56=CIRCLE('',#367,3.);
#57=CIRCLE('',#368,3.00000000000044);
#58=CIRCLE('',#369,2.99999999999999);
#59=CIRCLE('',#375,3.);
#60=CIRCLE('',#378,3.);
#61=CIRCLE('',#385,3.00000000000044);
#62=CIRCLE('',#388,2.99999999999999);
#63=LINE('',#489,#103);
#64=LINE('',#491,#104);
#65=LINE('',#493,#105);
#66=LINE('',#495,#106);
#67=LINE('',#497,#107);
#68=LINE('',#501,#108);
#69=LINE('',#505,#109);
#70=LINE('',#507,#110);
#71=LINE('',#509,#111);
#72=LINE('',#511,#112);
#73=LINE('',#513,#113);
#74=LINE('',#517,#114);
#75=LINE('',#521,#115);
#76=LINE('',#523,#116);
#77=LINE('',#524,#117);
#78=LINE('',#527,#118);
#79=LINE('',#528,#119);
#80=LINE('',#531,#120);
#81=LINE('',#532,#121);
#82=LINE('',#535,#122);
#83=LINE('',#536,#123);
#84=LINE('',#540,#124);
#85=LINE('',#543,#125);
#86=LINE('',#544,#126);
#87=LINE('',#548,#127);
#88=LINE('',#551,#128);
#89=LINE('',#552,#129);
#90=LINE('',#555,#130);
#91=LINE('',#556,#131);
#92=LINE('',#559,#132);
#93=LINE('',#560,#133);
#94=LINE('',#563,#134);
#95=LINE('',#564,#135);
#96=LINE('',#567,#136);
#97=LINE('',#568,#137);
#98=LINE('',#572,#138);
#99=LINE('',#575,#139);
#100=LINE('',#576,#140);
#101=LINE('',#580,#141);
#102=LINE('',#582,#142);
#103=VECTOR('',#395,10.);
#104=VECTOR('',#396,10.);
#105=VECTOR('',#397,10.);
#106=VECTOR('',#398,10.);
#107=VECTOR('',#399,10.);
#108=VECTOR('',#402,10.);
#109=VECTOR('',#405,10.);
#110=VECTOR('',#406,10.);
#111=VECTOR('',#407,10.);
#112=VECTOR('',#408,10.);
#113=VECTOR('',#409,10.);
#114=VECTOR('',#412,10.);
#115=VECTOR('',#417,10.);
#116=VECTOR('',#418,10.);
#117=VECTOR('',#419,10.);
#118=VECTOR('',#422,10.);
#119=VECTOR('',#423,10.);
#120=VECTOR('',#426,10.);
#121=VECTOR('',#427,10.);
#122=VECTOR('',#430,10.);
#123=VECTOR('',#431,10.);
#124=VECTOR('',#436,10.);
#125=VECTOR('',#439,10.);
#126=VECTOR('',#440,10.);
#127=VECTOR('',#445,10.);
#128=VECTOR('',#448,10.);
#129=VECTOR('',#449,10.);
#130=VECTOR('',#452,10.);
#131=VECTOR('',#453,10.);
#132=VECTOR('',#456,10.);
#133=VECTOR('',#457,10.);
#134=VECTOR('',#460,10.);
#135=VECTOR('',#461,10.);
#136=VECTOR('',#464,10.);
#137=VECTOR('',#465,10.);
#138=VECTOR('',#470,10.);
#139=VECTOR('',#473,10.);
#140=VECTOR('',#474,10.);
#141=VECTOR('',#479,10.);
#142=VECTOR('',#482,10.);
#143=VERTEX_POINT('',#487);
#144=VERTEX_POINT('',#488);
#145=VERTEX_POINT('',#490);
#146=VERTEX_POINT('',#492);
#147=VERTEX_POINT('',#494);
#148=VERTEX_POINT('',#496);
#149=VERTEX_POINT('',#498);
#150=VERTEX_POINT('',#500);
#151=VERTEX_POINT('',#502);
#152=VERTEX_POINT('',#504);
#153=VERTEX_POINT('',#506);
#154=VERTEX_POINT('',#508);
#155=VERTEX_POINT('',#510);
#156=VERTEX_POINT('',#512);
#157=VERTEX_POINT('',#514);
#158=VERTEX_POINT('',#516);
#159=VERTEX_POINT('',#520);
#160=VERTEX_POINT('',#522);
#161=VERTEX_POINT('',#526);
#162=VERTEX_POINT('',#530);
#163=VERTEX_POINT('',#534);
#164=VERTEX_POINT('',#538);
#165=VERTEX_POINT('',#542);
#166=VERTEX_POINT('',#546);
#167=VERTEX_POINT('',#550);
#168=VERTEX_POINT('',#554);
#169=VERTEX_POINT('',#558);
#170=VERTEX_POINT('',#562);
#171=VERTEX_POINT('',#566);
#172=VERTEX_POINT('',#570);
#173=VERTEX_POINT('',#574);
#174=VERTEX_POINT('',#578);
#175=EDGE_CURVE('',#143,#144,#63,.T.);
#176=EDGE_CURVE('',#144,#145,#64,.T.);
#177=EDGE_CURVE('',#145,#146,#65,.T.);
#178=EDGE_CURVE('',#146,#147,#66,.T.);
#179=EDGE_CURVE('',#147,#148,#67,.T.);
#180=EDGE_CURVE('',#148,#149,#55,.T.);
#181=EDGE_CURVE('',#149,#150,#68,.T.);
#182=EDGE_CURVE('',#150,#151,#56,.T.);
#183=EDGE_CURVE('',#151,#152,#69,.T.);
#184=EDGE_CURVE('',#152,#153,#70,.T.);
#185=EDGE_CURVE('',#153,#154,#71,.T.);
#186=EDGE_CURVE('',#154,#155,#72,.T.);
#187=EDGE_CURVE('',#155,#156,#73,.T.);
#188=EDGE_CURVE('',#156,#157,#57,.T.);
#189=EDGE_CURVE('',#157,#158,#74,.T.);
#190=EDGE_CURVE('',#158,#143,#58,.T.);
#191=EDGE_CURVE('',#159,#144,#75,.T.);
#192=EDGE_CURVE('',#160,#159,#76,.T.);
#193=EDGE_CURVE('',#145,#160,#77,.T.);
#194=EDGE_CURVE('',#161,#160,#78,.T.);
#195=EDGE_CURVE('',#146,#161,#79,.T.);
#196=EDGE_CURVE('',#162,#161,#80,.T.);
#197=EDGE_CURVE('',#147,#162,#81,.T.);
#198=EDGE_CURVE('',#163,#162,#82,.T.);
#199=EDGE_CURVE('',#148,#163,#83,.T.);
#200=EDGE_CURVE('',#164,#163,#59,.T.);
#201=EDGE_CURVE('',#149,#164,#84,.T.);
#202=EDGE_CURVE('',#165,#164,#85,.T.);
#203=EDGE_CURVE('',#150,#165,#86,.T.);
#204=EDGE_CURVE('',#166,#165,#60,.T.);
#205=EDGE_CURVE('',#151,#166,#87,.T.);
#206=EDGE_CURVE('',#167,#166,#88,.T.);
#207=EDGE_CURVE('',#152,#167,#89,.T.);
#208=EDGE_CURVE('',#168,#167,#90,.T.);
#209=EDGE_CURVE('',#153,#168,#91,.T.);
#210=EDGE_CURVE('',#169,#168,#92,.T.);
#211=EDGE_CURVE('',#154,#169,#93,.T.);
#212=EDGE_CURVE('',#170,#169,#94,.T.);
#213=EDGE_CURVE('',#155,#170,#95,.T.);
#214=EDGE_CURVE('',#171,#170,#96,.T.);
#215=EDGE_CURVE('',#156,#171,#97,.T.);
#216=EDGE_CURVE('',#172,#171,#61,.T.);
#217=EDGE_CURVE('',#157,#172,#98,.T.);
#218=EDGE_CURVE('',#173,#172,#99,.T.);
#219=EDGE_CURVE('',#158,#173,#100,.T.);
#220=EDGE_CURVE('',#174,#173,#62,.T.);
#221=EDGE_CURVE('',#143,#174,#101,.T.);
#222=EDGE_CURVE('',#159,#174,#102,.T.);
#223=ORIENTED_EDGE('',*,*,#175,.T.);
#224=ORIENTED_EDGE('',*,*,#176,.T.);
#225=ORIENTED_EDGE('',*,*,#177,.T.);
#226=ORIENTED_EDGE('',*,*,#178,.T.);
#227=ORIENTED_EDGE('',*,*,#179,.T.);
#228=ORIENTED_EDGE('',*,*,#180,.T.);
#229=ORIENTED_EDGE('',*,*,#181,.T.);
#230=ORIENTED_EDGE('',*,*,#182,.T.);
#231=ORIENTED_EDGE('',*,*,#183,.T.);
#232=ORIENTED_EDGE('',*,*,#184,.T.);
#233=ORIENTED_EDGE('',*,*,#185,.T.);
#234=ORIENTED_EDGE('',*,*,#186,.T.);
#235=ORIENTED_EDGE('',*,*,#187,.T.);
#236=ORIENTED_EDGE('',*,*,#188,.T.);
#237=ORIENTED_EDGE('',*,*,#189,.T.);
#238=ORIENTED_EDGE('',*,*,#190,.T.);
#239=ORIENTED_EDGE('',*,*,#191,.F.);
#240=ORIENTED_EDGE('',*,*,#192,.F.);
#241=ORIENTED_EDGE('',*,*,#193,.F.);
#242=ORIENTED_EDGE('',*,*,#176,.F.);
#243=ORIENTED_EDGE('',*,*,#193,.T.);
#244=ORIENTED_EDGE('',*,*,#194,.F.);
#245=ORIENTED_EDGE('',*,*,#195,.F.);
#246=ORIENTED_EDGE('',*,*,#177,.F.);
#247=ORIENTED_EDGE('',*,*,#195,.T.);
#248=ORIENTED_EDGE('',*,*,#196,.F.);
#249=ORIENTED_EDGE('',*,*,#197,.F.);
#250=ORIENTED_EDGE('',*,*,#178,.F.);
#251=ORIENTED_EDGE('',*,*,#197,.T.);
#252=ORIENTED_EDGE('',*,*,#198,.F.);
#253=ORIENTED_EDGE('',*,*,#199,.F.);
#254=ORIENTED_EDGE('',*,*,#179,.F.);
#255=ORIENTED_EDGE('',*,*,#199,.T.);
#256=ORIENTED_EDGE('',*,*,#200,.F.);
#257=ORIENTED_EDGE('',*,*,#201,.F.);
#258=ORIENTED_EDGE('',*,*,#180,.F.);
#259=ORIENTED_EDGE('',*,*,#201,.T.);
#260=ORIENTED_EDGE('',*,*,#202,.F.);
#261=ORIENTED_EDGE('',*,*,#203,.F.);
#262=ORIENTED_EDGE('',*,*,#181,.F.);
#263=ORIENTED_EDGE('',*,*,#203,.T.);
#264=ORIENTED_EDGE('',*,*,#204,.F.);
#265=ORIENTED_EDGE('',*,*,#205,.F.);
#266=ORIENTED_EDGE('',*,*,#182,.F.);
#267=ORIENTED_EDGE('',*,*,#205,.T.);
#268=ORIENTED_EDGE('',*,*,#206,.F.);
#269=ORIENTED_EDGE('',*,*,#207,.F.);
#270=ORIENTED_EDGE('',*,*,#183,.F.);
#271=ORIENTED_EDGE('',*,*,#207,.T.);
#272=ORIENTED_EDGE('',*,*,#208,.F.);
#273=ORIENTED_EDGE('',*,*,#209,.F.);
#274=ORIENTED_EDGE('',*,*,#184,.F.);
#275=ORIENTED_EDGE('',*,*,#209,.T.);
#276=ORIENTED_EDGE('',*,*,#210,.F.);
#277=ORIENTED_EDGE('',*,*,#211,.F.);
#278=ORIENTED_EDGE('',*,*,#185,.F.);
#279=ORIENTED_EDGE('',*,*,#211,.T.);
#280=ORIENTED_EDGE('',*,*,#212,.F.);
#281=ORIENTED_EDGE('',*,*,#213,.F.);
#282=ORIENTED_EDGE('',*,*,#186,.F.);
#283=ORIENTED_EDGE('',*,*,#213,.T.);
#284=ORIENTED_EDGE('',*,*,#214,.F.);
#285=ORIENTED_EDGE('',*,*,#215,.F.);
#286=ORIENTED_EDGE('',*,*,#187,.F.);
#287=ORIENTED_EDGE('',*,*,#215,.T.);
#288=ORIENTED_EDGE('',*,*,#216,.F.);
#289=ORIENTED_EDGE('',*,*,#217,.F.);
#290=ORIENTED_EDGE('',*,*,#188,.F.);
#291=ORIENTED_EDGE('',*,*,#217,.T.);
#292=ORIENTED_EDGE('',*,*,#218,.F.);
#293=ORIENTED_EDGE('',*,*,#219,.F.);
#294=ORIENTED_EDGE('',*,*,#189,.F.);
#295=ORIENTED_EDGE('',*,*,#219,.T.);
#296=ORIENTED_EDGE('',*,*,#220,.F.);
#297=ORIENTED_EDGE('',*,*,#221,.F.);
#298=ORIENTED_EDGE('',*,*,#190,.F.);
#299=ORIENTED_EDGE('',*,*,#221,.T.);
#300=ORIENTED_EDGE('',*,*,#222,.F.);
#301=ORIENTED_EDGE('',*,*,#191,.T.);
#302=ORIENTED_EDGE('',*,*,#175,.F.);
#303=ORIENTED_EDGE('',*,*,#222,.T.);
#304=ORIENTED_EDGE('',*,*,#220,.T.);
#305=ORIENTED_EDGE('',*,*,#218,.T.);
#306=ORIENTED_EDGE('',*,*,#216,.T.);
#307=ORIENTED_EDGE('',*,*,#214,.T.);
#308=ORIENTED_EDGE('',*,*,#212,.T.);
#309=ORIENTED_EDGE('',*,*,#210,.T.);
#310=ORIENTED_EDGE('',*,*,#208,.T.);
#311=ORIENTED_EDGE('',*,*,#206,.T.);
#312=ORIENTED_EDGE('',*,*,#204,.T.);
#313=ORIENTED_EDGE('',*,*,#202,.T.);
#314=ORIENTED_EDGE('',*,*,#200,.T.);
#315=ORIENTED_EDGE('',*,*,#198,.T.);
#316=ORIENTED_EDGE('',*,*,#196,.T.);
#317=ORIENTED_EDGE('',*,*,#194,.T.);
#318=ORIENTED_EDGE('',*,*,#192,.T.);
#319=PLANE('',#365);
#320=PLANE('',#370);
#321=PLANE('',#371);
#322=PLANE('',#372);
#323=PLANE('',#373);
#324=PLANE('',#376);
#325=PLANE('',#379);
#326=PLANE('',#380);
#327=PLANE('',#381);
#328=PLANE('',#382);
#329=PLANE('',#383);
#330=PLANE('',#386);
#331=PLANE('',#389);
#332=PLANE('',#390);
#333=ADVANCED_FACE('',(#19),#319,.F.);
#334=ADVANCED_FACE('',(#20),#320,.T.);
#335=ADVANCED_FACE('',(#21),#321,.T.);
#336=ADVANCED_FACE('',(#22),#322,.T.);
#337=ADVANCED_FACE('',(#23),#323,.T.);
#338=ADVANCED_FACE('',(#24),#15,.T.);
#339=ADVANCED_FACE('',(#25),#324,.T.);
#340=ADVANCED_FACE('',(#26),#16,.T.);
#341=ADVANCED_FACE('',(#27),#325,.T.);
#342=ADVANCED_FACE('',(#28),#326,.T.);
#343=ADVANCED_FACE('',(#29),#327,.T.);
#344=ADVANCED_FACE('',(#30),#328,.T.);
#345=ADVANCED_FACE('',(#31),#329,.T.);
#346=ADVANCED_FACE('',(#32),#17,.T.);
#347=ADVANCED_FACE('',(#33),#330,.T.);
#348=ADVANCED_FACE('',(#34),#18,.T.);
#349=ADVANCED_FACE('',(#35),#331,.T.);
#350=ADVANCED_FACE('',(#36),#332,.T.);
#351=CLOSED_SHELL('',(#333,#334,#335,#336,#337,#338,#339,#340,#341,#342,
#343,#344,#345,#346,#347,#348,#349,#350));
#352=DERIVED_UNIT_ELEMENT(#354,1.);
#353=DERIVED_UNIT_ELEMENT(#589,-3.);
#354=(
MASS_UNIT()
NAMED_UNIT(*)
SI_UNIT(.KILO.,.GRAM.)
);
#355=DERIVED_UNIT((#352,#353));
#356=MEASURE_REPRESENTATION_ITEM('density measure',
POSITIVE_RATIO_MEASURE(7850.),#355);
#357=PROPERTY_DEFINITION_REPRESENTATION(#362,#359);
#358=PROPERTY_DEFINITION_REPRESENTATION(#363,#360);
#359=REPRESENTATION('material name',(#361),#586);
#360=REPRESENTATION('density',(#356),#586);
#361=DESCRIPTIVE_REPRESENTATION_ITEM('Steel','Steel');
#362=PROPERTY_DEFINITION('material property','material name',#596);
#363=PROPERTY_DEFINITION('material property','density of part',#596);
#364=AXIS2_PLACEMENT_3D('placement',#485,#391,#392);
#365=AXIS2_PLACEMENT_3D('',#486,#393,#394);
#366=AXIS2_PLACEMENT_3D('',#499,#400,#401);
#367=AXIS2_PLACEMENT_3D('',#503,#403,#404);
#368=AXIS2_PLACEMENT_3D('',#515,#410,#411);
#369=AXIS2_PLACEMENT_3D('',#518,#413,#414);
#370=AXIS2_PLACEMENT_3D('',#519,#415,#416);
#371=AXIS2_PLACEMENT_3D('',#525,#420,#421);
#372=AXIS2_PLACEMENT_3D('',#529,#424,#425);
#373=AXIS2_PLACEMENT_3D('',#533,#428,#429);
#374=AXIS2_PLACEMENT_3D('',#537,#432,#433);
#375=AXIS2_PLACEMENT_3D('',#539,#434,#435);
#376=AXIS2_PLACEMENT_3D('',#541,#437,#438);
#377=AXIS2_PLACEMENT_3D('',#545,#441,#442);
#378=AXIS2_PLACEMENT_3D('',#547,#443,#444);
#379=AXIS2_PLACEMENT_3D('',#549,#446,#447);
#380=AXIS2_PLACEMENT_3D('',#553,#450,#451);
#381=AXIS2_PLACEMENT_3D('',#557,#454,#455);
#382=AXIS2_PLACEMENT_3D('',#561,#458,#459);
#383=AXIS2_PLACEMENT_3D('',#565,#462,#463);
#384=AXIS2_PLACEMENT_3D('',#569,#466,#467);
#385=AXIS2_PLACEMENT_3D('',#571,#468,#469);
#386=AXIS2_PLACEMENT_3D('',#573,#471,#472);
#387=AXIS2_PLACEMENT_3D('',#577,#475,#476);
#388=AXIS2_PLACEMENT_3D('',#579,#477,#478);
#389=AXIS2_PLACEMENT_3D('',#581,#480,#481);
#390=AXIS2_PLACEMENT_3D('',#583,#483,#484);
#391=DIRECTION('axis',(0.,0.,1.));
#392=DIRECTION('refdir',(1.,0.,0.));
#393=DIRECTION('center_axis',(0.,0.,1.));
#394=DIRECTION('ref_axis',(1.,0.,0.));
#395=DIRECTION('',(-2.21522147031096E-13,1.,0.));
#396=DIRECTION('',(1.,-4.80171458150384E-14,0.));
#397=DIRECTION('',(1.33226762955019E-14,1.,0.));
#398=DIRECTION('',(-1.,4.90163465372011E-14,0.));
#399=DIRECTION('',(0.,1.,0.));
#400=DIRECTION('center_axis',(0.,0.,-1.));
#401=DIRECTION('ref_axis',(2.368475785867E-14,1.,0.));
#402=DIRECTION('',(1.,-3.97691829716474E-16,0.));
#403=DIRECTION('center_axis',(0.,0.,-1.));
#404=DIRECTION('ref_axis',(1.,0.,0.));
#405=DIRECTION('',(-6.53072367426546E-17,-1.,0.));
#406=DIRECTION('',(-1.,3.94129173741931E-15,0.));
#407=DIRECTION('',(0.,-1.,0.));
#408=DIRECTION('',(1.,-4.9960036108132E-15,0.));
#409=DIRECTION('',(-2.49277722646725E-13,-1.,0.));
#410=DIRECTION('center_axis',(0.,0.,-1.));
#411=DIRECTION('ref_axis',(0.,-1.,0.));
#412=DIRECTION('',(-1.,1.77304274081935E-14,0.));
#413=DIRECTION('center_axis',(0.,0.,-1.));
#414=DIRECTION('ref_axis',(-1.,-2.31666537805117E-13,0.));
#415=DIRECTION('center_axis',(4.80171458150384E-14,1.,0.));
#416=DIRECTION('ref_axis',(-1.,4.80171458150384E-14,0.));
#417=DIRECTION('',(0.,0.,-1.));
#418=DIRECTION('',(-1.,4.80171458150384E-14,0.));
#419=DIRECTION('',(0.,0.,1.));
#420=DIRECTION('center_axis',(-1.,1.33226762955019E-14,0.));
#421=DIRECTION('ref_axis',(-1.33226762955019E-14,-1.,0.));
#422=DIRECTION('',(-1.33226762955019E-14,-1.,0.));
#423=DIRECTION('',(0.,0.,1.));
#424=DIRECTION('center_axis',(-4.90163465372011E-14,-1.,0.));
#425=DIRECTION('ref_axis',(1.,-4.90163465372011E-14,0.));
#426=DIRECTION('',(1.,-4.90163465372011E-14,0.));
#427=DIRECTION('',(0.,0.,1.));
#428=DIRECTION('center_axis',(-1.,0.,0.));
#429=DIRECTION('ref_axis',(0.,-1.,0.));
#430=DIRECTION('',(0.,-1.,0.));
#431=DIRECTION('',(0.,0.,1.));
#432=DIRECTION('center_axis',(0.,0.,1.));
#433=DIRECTION('ref_axis',(2.368475785867E-14,1.,0.));
#434=DIRECTION('center_axis',(0.,0.,1.));
#435=DIRECTION('ref_axis',(2.368475785867E-14,1.,0.));
#436=DIRECTION('',(0.,0.,1.));
#437=DIRECTION('center_axis',(3.97691829716474E-16,1.,0.));
#438=DIRECTION('ref_axis',(-1.,3.97691829716474E-16,0.));
#439=DIRECTION('',(-1.,3.97691829716474E-16,0.));
#440=DIRECTION('',(0.,0.,1.));
#441=DIRECTION('center_axis',(0.,0.,1.));
#442=DIRECTION('ref_axis',(1.,0.,0.));
#443=DIRECTION('center_axis',(0.,0.,1.));
#444=DIRECTION('ref_axis',(1.,0.,0.));
#445=DIRECTION('',(0.,0.,1.));
#446=DIRECTION('center_axis',(1.,-6.53072367426546E-17,0.));
#447=DIRECTION('ref_axis',(6.53072367426546E-17,1.,0.));
#448=DIRECTION('',(6.53072367426546E-17,1.,0.));
#449=DIRECTION('',(0.,0.,1.));
#450=DIRECTION('center_axis',(-3.94129173741931E-15,-1.,0.));
#451=DIRECTION('ref_axis',(1.,-3.94129173741931E-15,0.));
#452=DIRECTION('',(1.,-3.94129173741931E-15,0.));
#453=DIRECTION('',(0.,0.,1.));
#454=DIRECTION('center_axis',(1.,0.,0.));
#455=DIRECTION('ref_axis',(0.,1.,0.));
#456=DIRECTION('',(0.,1.,0.));
#457=DIRECTION('',(0.,0.,1.));
#458=DIRECTION('center_axis',(4.9960036108132E-15,1.,0.));
#459=DIRECTION('ref_axis',(-1.,4.9960036108132E-15,0.));
#460=DIRECTION('',(-1.,4.9960036108132E-15,0.));
#461=DIRECTION('',(0.,0.,1.));
#462=DIRECTION('center_axis',(1.,-2.49277722646725E-13,0.));
#463=DIRECTION('ref_axis',(2.49277722646725E-13,1.,0.));
#464=DIRECTION('',(2.49277722646725E-13,1.,0.));
#465=DIRECTION('',(0.,0.,1.));
#466=DIRECTION('center_axis',(0.,0.,1.));
#467=DIRECTION('ref_axis',(0.,-1.,0.));
#468=DIRECTION('center_axis',(0.,0.,1.));
#469=DIRECTION('ref_axis',(0.,-1.,0.));
#470=DIRECTION('',(0.,0.,1.));
#471=DIRECTION('center_axis',(-1.77304274081935E-14,-1.,0.));
#472=DIRECTION('ref_axis',(1.,-1.77304274081935E-14,0.));
#473=DIRECTION('',(1.,-1.77304274081935E-14,0.));
#474=DIRECTION('',(0.,0.,1.));
#475=DIRECTION('center_axis',(0.,0.,1.));
#476=DIRECTION('ref_axis',(-1.,-2.31666537805117E-13,0.));
#477=DIRECTION('center_axis',(0.,0.,1.));
#478=DIRECTION('ref_axis',(-1.,-2.31666537805117E-13,0.));
#479=DIRECTION('',(0.,0.,1.));
#480=DIRECTION('center_axis',(-1.,-2.21522147031096E-13,0.));
#481=DIRECTION('ref_axis',(2.21522147031096E-13,-1.,0.));
#482=DIRECTION('',(2.21522147031096E-13,-1.,0.));
#483=DIRECTION('center_axis',(0.,0.,1.));
#484=DIRECTION('ref_axis',(1.,0.,0.));
#485=CARTESIAN_POINT('',(0.,0.,0.));
#486=CARTESIAN_POINT('Origin',(-73.0000000000001,9.76996261670138E-13,-100.));
#487=CARTESIAN_POINT('',(-142.999999999998,-10.4999999999985,-100.));
#488=CARTESIAN_POINT('',(-143.,-1.99999999999875,-100.));
#489=CARTESIAN_POINT('',(-143.,-1.99999999999875,-100.));
#490=CARTESIAN_POINT('',(-133.,-1.99999999999923,-100.));
#491=CARTESIAN_POINT('',(-143.,-1.99999999999875,-100.));
#492=CARTESIAN_POINT('',(-133.,2.00000000000077,-100.));
#493=CARTESIAN_POINT('',(-133.,-1.99999999999923,-100.));
#494=CARTESIAN_POINT('',(-143.,2.00000000000126,-100.));
#495=CARTESIAN_POINT('',(-133.,2.00000000000077,-100.));
#496=CARTESIAN_POINT('',(-143.,10.5000000000015,-100.));
#497=CARTESIAN_POINT('',(-143.,2.00000000000126,-100.));
#498=CARTESIAN_POINT('',(-140.,13.5000000000014,-100.));
#499=CARTESIAN_POINT('Origin',(-140.,10.5000000000014,-100.));
#500=CARTESIAN_POINT('',(-6.00000000000001,13.5000000000002,-100.));
#501=CARTESIAN_POINT('',(-6.00000000000001,13.5000000000002,-100.));
#502=CARTESIAN_POINT('',(-3.00000000000001,10.5000000000002,-100.));
#503=CARTESIAN_POINT('Origin',(-6.00000000000001,10.5000000000002,-100.));
#504=CARTESIAN_POINT('',(-3.00000000000001,2.00000000000002,-100.));
#505=CARTESIAN_POINT('',(-3.,2.00000000000002,-100.));
#506=CARTESIAN_POINT('',(-13.,2.00000000000006,-100.));
#507=CARTESIAN_POINT('',(-13.,2.00000000000006,-100.));
#508=CARTESIAN_POINT('',(-13.,-1.99999999999994,-100.));
#509=CARTESIAN_POINT('',(-13.,-1.99999999999994,-100.));
#510=CARTESIAN_POINT('',(-2.99999999999999,-1.99999999999999,-100.));
#511=CARTESIAN_POINT('',(-3.,-1.99999999999999,-100.));
#512=CARTESIAN_POINT('',(-3.00000000000212,-10.4999999999998,-100.));
#513=CARTESIAN_POINT('',(-3.,-1.99999999999999,-100.));
#514=CARTESIAN_POINT('',(-6.00000000000255,-13.4999999999995,-100.));
#515=CARTESIAN_POINT('Origin',(-6.00000000000256,-10.499999999999,-100.));
#516=CARTESIAN_POINT('',(-139.999999999998,-13.4999999999978,-100.));
#517=CARTESIAN_POINT('',(-73.0000000000005,-13.4999999999995,-100.));
#518=CARTESIAN_POINT('Origin',(-139.999999999998,-10.4999999999978,-100.));
#519=CARTESIAN_POINT('Origin',(-133.,-1.99999999999923,0.));
#520=CARTESIAN_POINT('',(-143.,-1.99999999999875,100.));
#521=CARTESIAN_POINT('',(-143.,-1.99999999999875,0.));
#522=CARTESIAN_POINT('',(-133.,-1.99999999999923,100.));
#523=CARTESIAN_POINT('',(-143.,-1.99999999999875,100.));
#524=CARTESIAN_POINT('',(-133.,-1.99999999999923,0.));
#525=CARTESIAN_POINT('Origin',(-133.,2.00000000000077,0.));
#526=CARTESIAN_POINT('',(-133.,2.00000000000077,100.));
#527=CARTESIAN_POINT('',(-133.,-1.99999999999923,100.));
#528=CARTESIAN_POINT('',(-133.,2.00000000000077,0.));
#529=CARTESIAN_POINT('Origin',(-143.,2.00000000000126,0.));
#530=CARTESIAN_POINT('',(-143.,2.00000000000126,100.));
#531=CARTESIAN_POINT('',(-133.,2.00000000000077,100.));
#532=CARTESIAN_POINT('',(-143.,2.00000000000126,0.));
#533=CARTESIAN_POINT('Origin',(-143.,10.5000000000015,0.));
#534=CARTESIAN_POINT('',(-143.,10.5000000000015,100.));
#535=CARTESIAN_POINT('',(-143.,2.00000000000126,100.));
#536=CARTESIAN_POINT('',(-143.,10.5000000000015,0.));
#537=CARTESIAN_POINT('Origin',(-140.,10.5000000000014,0.));
#538=CARTESIAN_POINT('',(-140.,13.5000000000014,100.));
#539=CARTESIAN_POINT('Origin',(-140.,10.5000000000014,100.));
#540=CARTESIAN_POINT('',(-140.,13.5000000000014,0.));
#541=CARTESIAN_POINT('Origin',(-6.00000000000001,13.5000000000002,0.));
#542=CARTESIAN_POINT('',(-6.00000000000001,13.5000000000002,100.));
#543=CARTESIAN_POINT('',(-6.00000000000001,13.5000000000002,100.));
#544=CARTESIAN_POINT('',(-6.00000000000001,13.5000000000002,0.));
#545=CARTESIAN_POINT('Origin',(-6.00000000000001,10.5000000000002,0.));
#546=CARTESIAN_POINT('',(-3.00000000000001,10.5000000000002,100.));
#547=CARTESIAN_POINT('Origin',(-6.00000000000001,10.5000000000002,100.));
#548=CARTESIAN_POINT('',(-3.,10.5000000000002,0.));
#549=CARTESIAN_POINT('Origin',(-3.,2.00000000000002,0.));
#550=CARTESIAN_POINT('',(-3.00000000000001,2.00000000000002,100.));
#551=CARTESIAN_POINT('',(-3.,2.00000000000002,100.));
#552=CARTESIAN_POINT('',(-3.,2.00000000000002,0.));
#553=CARTESIAN_POINT('Origin',(-13.,2.00000000000006,0.));
#554=CARTESIAN_POINT('',(-13.,2.00000000000006,100.));
#555=CARTESIAN_POINT('',(-13.,2.00000000000006,100.));
#556=CARTESIAN_POINT('',(-13.,2.00000000000006,0.));
#557=CARTESIAN_POINT('Origin',(-13.,-1.99999999999994,0.));
#558=CARTESIAN_POINT('',(-13.,-1.99999999999994,100.));
#559=CARTESIAN_POINT('',(-13.,-1.99999999999994,100.));
#560=CARTESIAN_POINT('',(-13.,-1.99999999999994,0.));
#561=CARTESIAN_POINT('Origin',(-3.,-1.99999999999999,0.));
#562=CARTESIAN_POINT('',(-2.99999999999999,-1.99999999999999,100.));
#563=CARTESIAN_POINT('',(-3.,-1.99999999999999,100.));
#564=CARTESIAN_POINT('',(-3.,-1.99999999999999,0.));
#565=CARTESIAN_POINT('Origin',(-3.00000000000212,-10.4999999999998,0.));
#566=CARTESIAN_POINT('',(-3.00000000000212,-10.4999999999998,100.));
#567=CARTESIAN_POINT('',(-3.,-1.99999999999999,100.));
#568=CARTESIAN_POINT('',(-3.00000000000212,-10.4999999999998,0.));
#569=CARTESIAN_POINT('Origin',(-6.00000000000256,-10.499999999999,0.));
#570=CARTESIAN_POINT('',(-6.00000000000255,-13.4999999999995,100.));
#571=CARTESIAN_POINT('Origin',(-6.00000000000256,-10.499999999999,100.));
#572=CARTESIAN_POINT('',(-6.00000000000256,-13.4999999999995,0.));
#573=CARTESIAN_POINT('Origin',(-139.999999999998,-13.4999999999983,0.));
#574=CARTESIAN_POINT('',(-139.999999999998,-13.4999999999978,100.));
#575=CARTESIAN_POINT('',(-73.0000000000005,-13.4999999999995,100.));
#576=CARTESIAN_POINT('',(-139.999999999998,-13.4999999999978,0.));
#577=CARTESIAN_POINT('Origin',(-139.999999999998,-10.4999999999978,0.));
#578=CARTESIAN_POINT('',(-142.999999999998,-10.4999999999985,100.));
#579=CARTESIAN_POINT('Origin',(-139.999999999998,-10.4999999999978,100.));
#580=CARTESIAN_POINT('',(-142.999999999998,-10.4999999999985,0.));
#581=CARTESIAN_POINT('Origin',(-143.,-1.99999999999875,0.));
#582=CARTESIAN_POINT('',(-143.,-1.99999999999875,100.));
#583=CARTESIAN_POINT('Origin',(-73.0000000000001,9.76996261670138E-13,100.));
#584=UNCERTAINTY_MEASURE_WITH_UNIT(LENGTH_MEASURE(0.01),#588,
'DISTANCE_ACCURACY_VALUE',
'Maximum model space distance between geometric entities at asserted c
onnectivities');
#585=UNCERTAINTY_MEASURE_WITH_UNIT(LENGTH_MEASURE(0.01),#588,
'DISTANCE_ACCURACY_VALUE',
'Maximum model space distance between geometric entities at asserted c
onnectivities');
#586=(
GEOMETRIC_REPRESENTATION_CONTEXT(3)
GLOBAL_UNCERTAINTY_ASSIGNED_CONTEXT((#584))
GLOBAL_UNIT_ASSIGNED_CONTEXT((#588,#590,#591))
REPRESENTATION_CONTEXT('','3D')
);
#587=(
GEOMETRIC_REPRESENTATION_CONTEXT(3)
GLOBAL_UNCERTAINTY_ASSIGNED_CONTEXT((#585))
GLOBAL_UNIT_ASSIGNED_CONTEXT((#588,#590,#591))
REPRESENTATION_CONTEXT('','3D')
);
#588=(
LENGTH_UNIT()
NAMED_UNIT(*)
SI_UNIT(.MILLI.,.METRE.)
);
#589=(
LENGTH_UNIT()
NAMED_UNIT(*)
SI_UNIT($,.METRE.)
);
#590=(
NAMED_UNIT(*)
PLANE_ANGLE_UNIT()
SI_UNIT($,.RADIAN.)
);
#591=(
NAMED_UNIT(*)
SI_UNIT($,.STERADIAN.)
SOLID_ANGLE_UNIT()
);
#592=SHAPE_DEFINITION_REPRESENTATION(#593,#594);
#593=PRODUCT_DEFINITION_SHAPE('',$,#596);
#594=SHAPE_REPRESENTATION('',(#364),#586);
#595=PRODUCT_DEFINITION_CONTEXT('part definition',#600,'design');
#596=PRODUCT_DEFINITION('PlatoWood 27x140 P16',
'PlatoWood 27x140 P16 v3',#597,#595);
#597=PRODUCT_DEFINITION_FORMATION('',$,#602);
#598=PRODUCT_RELATED_PRODUCT_CATEGORY('PlatoWood 27x140 P16 v3',
'PlatoWood 27x140 P16 v3',(#602));
#599=APPLICATION_PROTOCOL_DEFINITION('international standard',
'automotive_design',2009,#600);
#600=APPLICATION_CONTEXT(
'Core Data for Automotive Mechanical Design Process');
#601=PRODUCT_CONTEXT('part definition',#600,'mechanical');
#602=PRODUCT('PlatoWood 27x140 P16','PlatoWood 27x140 P16 v3',$,(#601));
#603=PRESENTATION_STYLE_ASSIGNMENT((#605));
#604=PRESENTATION_STYLE_ASSIGNMENT((#606));
#605=SURFACE_STYLE_USAGE(.BOTH.,#607);
#606=SURFACE_STYLE_USAGE(.BOTH.,#608);
#607=SURFACE_SIDE_STYLE('',(#609));
#608=SURFACE_SIDE_STYLE('',(#610));
#609=SURFACE_STYLE_FILL_AREA(#611);
#610=SURFACE_STYLE_FILL_AREA(#612);
#611=FILL_AREA_STYLE('Steel - Satin',(#613));
#612=FILL_AREA_STYLE('3D Mahogany - Unfinished',(#614));
#613=FILL_AREA_STYLE_COLOUR('Steel - Satin',#615);
#614=FILL_AREA_STYLE_COLOUR('3D Mahogany - Unfinished',#616);
#615=COLOUR_RGB('Steel - Satin',0.627450980392157,0.627450980392157,0.627450980392157);
#616=COLOUR_RGB('3D Mahogany - Unfinished',0.568627450980392,0.407843137254902,
0.313725490196078);
ENDSEC;
END-ISO-10303-21;
