ISO-10303-21;
HEADER;
/* Generated by software containing ST-Developer
 * from STEP Tools, Inc. (www.steptools.com) 
 */

FILE_DESCRIPTION(
/* description */ (''),
/* implementation_level */ '2;1');

FILE_NAME(
/* name */ 
'C:/Users/Eigenaar/Documents/Andrew/Ventura Welding (Workshop)/For Con
struction 2021/PlatoWood profile drawings/PlatoWood profiles, STEP/Pla
toWood 18x140 P03 (Standard rabat).step',
/* time_stamp */ '2021-11-11T07:49:08+01:00',
/* author */ (''),
/* organization */ (''),
/* preprocessor_version */ 'ST-DEVELOPER v18.1',
/* originating_system */ 'Autodesk Translation Framework v10.10.0.1391',

/* authorisation */ '');

FILE_SCHEMA (('AUTOMOTIVE_DESIGN { 1 0 10303 214 3 1 1 }'));
ENDSEC;

DATA;
#10=MECHANICAL_DESIGN_GEOMETRIC_PRESENTATION_REPRESENTATION('',(#13),#562);
#11=SHAPE_REPRESENTATION_RELATIONSHIP('SRR','None',#569,#12);
#12=ADVANCED_BREP_SHAPE_REPRESENTATION('',(#14),#561);
#13=STYLED_ITEM('',(#579),#14);
#14=MANIFOLD_SOLID_BREP('Body1',#322);
#15=CIRCLE('',#338,3.);
#16=CIRCLE('',#339,3.);
#17=CIRCLE('',#342,3.);
#18=CIRCLE('',#343,3.);
#19=CIRCLE('',#346,2.99999999999999);
#20=CIRCLE('',#347,2.99999999999999);
#21=CIRCLE('',#350,3.);
#22=CIRCLE('',#351,3.);
#23=CIRCLE('',#354,21.5000000000001);
#24=CIRCLE('',#355,21.5000000000001);
#25=CIRCLE('',#357,6.);
#26=CIRCLE('',#358,6.);
#27=CIRCLE('',#361,2.99999999999802);
#28=CIRCLE('',#362,2.99999999999802);
#29=CIRCLE('',#365,3.);
#30=CIRCLE('',#366,3.);
#31=CYLINDRICAL_SURFACE('',#337,3.);
#32=CYLINDRICAL_SURFACE('',#341,3.);
#33=CYLINDRICAL_SURFACE('',#345,2.99999999999999);
#34=CYLINDRICAL_SURFACE('',#349,3.);
#35=CYLINDRICAL_SURFACE('',#353,21.5000000000001);
#36=CYLINDRICAL_SURFACE('',#356,6.);
#37=CYLINDRICAL_SURFACE('',#360,2.99999999999802);
#38=CYLINDRICAL_SURFACE('',#364,3.);
#39=FACE_OUTER_BOUND('',#56,.T.);
#40=FACE_OUTER_BOUND('',#57,.T.);
#41=FACE_OUTER_BOUND('',#58,.T.);
#42=FACE_OUTER_BOUND('',#59,.T.);
#43=FACE_OUTER_BOUND('',#60,.T.);
#44=FACE_OUTER_BOUND('',#61,.T.);
#45=FACE_OUTER_BOUND('',#62,.T.);
#46=FACE_OUTER_BOUND('',#63,.T.);
#47=FACE_OUTER_BOUND('',#64,.T.);
#48=FACE_OUTER_BOUND('',#65,.T.);
#49=FACE_OUTER_BOUND('',#66,.T.);
#50=FACE_OUTER_BOUND('',#67,.T.);
#51=FACE_OUTER_BOUND('',#68,.T.);
#52=FACE_OUTER_BOUND('',#69,.T.);
#53=FACE_OUTER_BOUND('',#70,.T.);
#54=FACE_OUTER_BOUND('',#71,.T.);
#55=FACE_OUTER_BOUND('',#72,.T.);
#56=EDGE_LOOP('',(#206,#207,#208,#209));
#57=EDGE_LOOP('',(#210,#211,#212,#213));
#58=EDGE_LOOP('',(#214,#215,#216,#217));
#59=EDGE_LOOP('',(#218,#219,#220,#221));
#60=EDGE_LOOP('',(#222,#223,#224,#225));
#61=EDGE_LOOP('',(#226,#227,#228,#229));
#62=EDGE_LOOP('',(#230,#231,#232,#233));
#63=EDGE_LOOP('',(#234,#235,#236,#237));
#64=EDGE_LOOP('',(#238,#239,#240,#241));
#65=EDGE_LOOP('',(#242,#243,#244,#245));
#66=EDGE_LOOP('',(#246,#247,#248,#249));
#67=EDGE_LOOP('',(#250,#251,#252,#253));
#68=EDGE_LOOP('',(#254,#255,#256,#257));
#69=EDGE_LOOP('',(#258,#259,#260,#261));
#70=EDGE_LOOP('',(#262,#263,#264,#265));
#71=EDGE_LOOP('',(#266,#267,#268,#269,#270,#271,#272,#273,#274,#275,#276,
#277,#278,#279,#280));
#72=EDGE_LOOP('',(#281,#282,#283,#284,#285,#286,#287,#288,#289,#290,#291,
#292,#293,#294,#295));
#73=LINE('',#470,#102);
#74=LINE('',#472,#103);
#75=LINE('',#474,#104);
#76=LINE('',#475,#105);
#77=LINE('',#481,#106);
#78=LINE('',#484,#107);
#79=LINE('',#486,#108);
#80=LINE('',#487,#109);
#81=LINE('',#493,#110);
#82=LINE('',#496,#111);
#83=LINE('',#498,#112);
#84=LINE('',#499,#113);
#85=LINE('',#505,#114);
#86=LINE('',#508,#115);
#87=LINE('',#510,#116);
#88=LINE('',#511,#117);
#89=LINE('',#517,#118);
#90=LINE('',#520,#119);
#91=LINE('',#522,#120);
#92=LINE('',#523,#121);
#93=LINE('',#529,#122);
#94=LINE('',#535,#123);
#95=LINE('',#538,#124);
#96=LINE('',#540,#125);
#97=LINE('',#541,#126);
#98=LINE('',#547,#127);
#99=LINE('',#550,#128);
#100=LINE('',#552,#129);
#101=LINE('',#553,#130);
#102=VECTOR('',#373,10.);
#103=VECTOR('',#374,10.);
#104=VECTOR('',#375,10.);
#105=VECTOR('',#376,10.);
#106=VECTOR('',#383,10.);
#107=VECTOR('',#386,10.);
#108=VECTOR('',#387,10.);
#109=VECTOR('',#388,10.);
#110=VECTOR('',#395,10.);
#111=VECTOR('',#398,10.);
#112=VECTOR('',#399,10.);
#113=VECTOR('',#400,10.);
#114=VECTOR('',#407,10.);
#115=VECTOR('',#410,10.);
#116=VECTOR('',#411,10.);
#117=VECTOR('',#412,10.);
#118=VECTOR('',#419,10.);
#119=VECTOR('',#422,10.);
#120=VECTOR('',#423,10.);
#121=VECTOR('',#424,10.);
#122=VECTOR('',#431,10.);
#123=VECTOR('',#438,10.);
#124=VECTOR('',#441,10.);
#125=VECTOR('',#442,10.);
#126=VECTOR('',#443,10.);
#127=VECTOR('',#450,10.);
#128=VECTOR('',#453,10.);
#129=VECTOR('',#454,10.);
#130=VECTOR('',#455,10.);
#131=VERTEX_POINT('',#468);
#132=VERTEX_POINT('',#469);
#133=VERTEX_POINT('',#471);
#134=VERTEX_POINT('',#473);
#135=VERTEX_POINT('',#477);
#136=VERTEX_POINT('',#479);
#137=VERTEX_POINT('',#483);
#138=VERTEX_POINT('',#485);
#139=VERTEX_POINT('',#489);
#140=VERTEX_POINT('',#491);
#141=VERTEX_POINT('',#495);
#142=VERTEX_POINT('',#497);
#143=VERTEX_POINT('',#501);
#144=VERTEX_POINT('',#503);
#145=VERTEX_POINT('',#507);
#146=VERTEX_POINT('',#509);
#147=VERTEX_POINT('',#513);
#148=VERTEX_POINT('',#515);
#149=VERTEX_POINT('',#519);
#150=VERTEX_POINT('',#521);
#151=VERTEX_POINT('',#525);
#152=VERTEX_POINT('',#527);
#153=VERTEX_POINT('',#531);
#154=VERTEX_POINT('',#533);
#155=VERTEX_POINT('',#537);
#156=VERTEX_POINT('',#539);
#157=VERTEX_POINT('',#543);
#158=VERTEX_POINT('',#545);
#159=VERTEX_POINT('',#549);
#160=VERTEX_POINT('',#551);
#161=EDGE_CURVE('',#131,#132,#73,.T.);
#162=EDGE_CURVE('',#132,#133,#74,.T.);
#163=EDGE_CURVE('',#134,#133,#75,.T.);
#164=EDGE_CURVE('',#131,#134,#76,.T.);
#165=EDGE_CURVE('',#131,#135,#15,.T.);
#166=EDGE_CURVE('',#136,#134,#16,.T.);
#167=EDGE_CURVE('',#135,#136,#77,.T.);
#168=EDGE_CURVE('',#137,#135,#78,.T.);
#169=EDGE_CURVE('',#138,#136,#79,.T.);
#170=EDGE_CURVE('',#137,#138,#80,.T.);
#171=EDGE_CURVE('',#139,#137,#17,.T.);
#172=EDGE_CURVE('',#140,#138,#18,.T.);
#173=EDGE_CURVE('',#139,#140,#81,.T.);
#174=EDGE_CURVE('',#141,#139,#82,.T.);
#175=EDGE_CURVE('',#142,#140,#83,.T.);
#176=EDGE_CURVE('',#141,#142,#84,.T.);
#177=EDGE_CURVE('',#143,#141,#19,.T.);
#178=EDGE_CURVE('',#144,#142,#20,.T.);
#179=EDGE_CURVE('',#143,#144,#85,.T.);
#180=EDGE_CURVE('',#143,#145,#86,.T.);
#181=EDGE_CURVE('',#146,#144,#87,.T.);
#182=EDGE_CURVE('',#145,#146,#88,.T.);
#183=EDGE_CURVE('',#147,#145,#21,.T.);
#184=EDGE_CURVE('',#148,#146,#22,.T.);
#185=EDGE_CURVE('',#147,#148,#89,.T.);
#186=EDGE_CURVE('',#149,#147,#90,.T.);
#187=EDGE_CURVE('',#150,#148,#91,.T.);
#188=EDGE_CURVE('',#149,#150,#92,.T.);
#189=EDGE_CURVE('',#149,#151,#23,.T.);
#190=EDGE_CURVE('',#152,#150,#24,.T.);
#191=EDGE_CURVE('',#151,#152,#93,.T.);
#192=EDGE_CURVE('',#153,#151,#25,.T.);
#193=EDGE_CURVE('',#154,#152,#26,.T.);
#194=EDGE_CURVE('',#153,#154,#94,.T.);
#195=EDGE_CURVE('',#155,#153,#95,.T.);
#196=EDGE_CURVE('',#156,#154,#96,.T.);
#197=EDGE_CURVE('',#155,#156,#97,.T.);
#198=EDGE_CURVE('',#157,#155,#27,.T.);
#199=EDGE_CURVE('',#158,#156,#28,.T.);
#200=EDGE_CURVE('',#157,#158,#98,.T.);
#201=EDGE_CURVE('',#159,#157,#99,.T.);
#202=EDGE_CURVE('',#160,#158,#100,.T.);
#203=EDGE_CURVE('',#159,#160,#101,.T.);
#204=EDGE_CURVE('',#132,#159,#29,.T.);
#205=EDGE_CURVE('',#133,#160,#30,.T.);
#206=ORIENTED_EDGE('',*,*,#161,.T.);
#207=ORIENTED_EDGE('',*,*,#162,.T.);
#208=ORIENTED_EDGE('',*,*,#163,.F.);
#209=ORIENTED_EDGE('',*,*,#164,.F.);
#210=ORIENTED_EDGE('',*,*,#165,.F.);
#211=ORIENTED_EDGE('',*,*,#164,.T.);
#212=ORIENTED_EDGE('',*,*,#166,.F.);
#213=ORIENTED_EDGE('',*,*,#167,.F.);
#214=ORIENTED_EDGE('',*,*,#168,.T.);
#215=ORIENTED_EDGE('',*,*,#167,.T.);
#216=ORIENTED_EDGE('',*,*,#169,.F.);
#217=ORIENTED_EDGE('',*,*,#170,.F.);
#218=ORIENTED_EDGE('',*,*,#171,.T.);
#219=ORIENTED_EDGE('',*,*,#170,.T.);
#220=ORIENTED_EDGE('',*,*,#172,.F.);
#221=ORIENTED_EDGE('',*,*,#173,.F.);
#222=ORIENTED_EDGE('',*,*,#174,.T.);
#223=ORIENTED_EDGE('',*,*,#173,.T.);
#224=ORIENTED_EDGE('',*,*,#175,.F.);
#225=ORIENTED_EDGE('',*,*,#176,.F.);
#226=ORIENTED_EDGE('',*,*,#177,.T.);
#227=ORIENTED_EDGE('',*,*,#176,.T.);
#228=ORIENTED_EDGE('',*,*,#178,.F.);
#229=ORIENTED_EDGE('',*,*,#179,.F.);
#230=ORIENTED_EDGE('',*,*,#180,.F.);
#231=ORIENTED_EDGE('',*,*,#179,.T.);
#232=ORIENTED_EDGE('',*,*,#181,.F.);
#233=ORIENTED_EDGE('',*,*,#182,.F.);
#234=ORIENTED_EDGE('',*,*,#183,.T.);
#235=ORIENTED_EDGE('',*,*,#182,.T.);
#236=ORIENTED_EDGE('',*,*,#184,.F.);
#237=ORIENTED_EDGE('',*,*,#185,.F.);
#238=ORIENTED_EDGE('',*,*,#186,.T.);
#239=ORIENTED_EDGE('',*,*,#185,.T.);
#240=ORIENTED_EDGE('',*,*,#187,.F.);
#241=ORIENTED_EDGE('',*,*,#188,.F.);
#242=ORIENTED_EDGE('',*,*,#189,.F.);
#243=ORIENTED_EDGE('',*,*,#188,.T.);
#244=ORIENTED_EDGE('',*,*,#190,.F.);
#245=ORIENTED_EDGE('',*,*,#191,.F.);
#246=ORIENTED_EDGE('',*,*,#192,.T.);
#247=ORIENTED_EDGE('',*,*,#191,.T.);
#248=ORIENTED_EDGE('',*,*,#193,.F.);
#249=ORIENTED_EDGE('',*,*,#194,.F.);
#250=ORIENTED_EDGE('',*,*,#195,.T.);
#251=ORIENTED_EDGE('',*,*,#194,.T.);
#252=ORIENTED_EDGE('',*,*,#196,.F.);
#253=ORIENTED_EDGE('',*,*,#197,.F.);
#254=ORIENTED_EDGE('',*,*,#198,.T.);
#255=ORIENTED_EDGE('',*,*,#197,.T.);
#256=ORIENTED_EDGE('',*,*,#199,.F.);
#257=ORIENTED_EDGE('',*,*,#200,.F.);
#258=ORIENTED_EDGE('',*,*,#201,.T.);
#259=ORIENTED_EDGE('',*,*,#200,.T.);
#260=ORIENTED_EDGE('',*,*,#202,.F.);
#261=ORIENTED_EDGE('',*,*,#203,.F.);
#262=ORIENTED_EDGE('',*,*,#204,.T.);
#263=ORIENTED_EDGE('',*,*,#203,.T.);
#264=ORIENTED_EDGE('',*,*,#205,.F.);
#265=ORIENTED_EDGE('',*,*,#162,.F.);
#266=ORIENTED_EDGE('',*,*,#205,.T.);
#267=ORIENTED_EDGE('',*,*,#202,.T.);
#268=ORIENTED_EDGE('',*,*,#199,.T.);
#269=ORIENTED_EDGE('',*,*,#196,.T.);
#270=ORIENTED_EDGE('',*,*,#193,.T.);
#271=ORIENTED_EDGE('',*,*,#190,.T.);
#272=ORIENTED_EDGE('',*,*,#187,.T.);
#273=ORIENTED_EDGE('',*,*,#184,.T.);
#274=ORIENTED_EDGE('',*,*,#181,.T.);
#275=ORIENTED_EDGE('',*,*,#178,.T.);
#276=ORIENTED_EDGE('',*,*,#175,.T.);
#277=ORIENTED_EDGE('',*,*,#172,.T.);
#278=ORIENTED_EDGE('',*,*,#169,.T.);
#279=ORIENTED_EDGE('',*,*,#166,.T.);
#280=ORIENTED_EDGE('',*,*,#163,.T.);
#281=ORIENTED_EDGE('',*,*,#204,.F.);
#282=ORIENTED_EDGE('',*,*,#161,.F.);
#283=ORIENTED_EDGE('',*,*,#165,.T.);
#284=ORIENTED_EDGE('',*,*,#168,.F.);
#285=ORIENTED_EDGE('',*,*,#171,.F.);
#286=ORIENTED_EDGE('',*,*,#174,.F.);
#287=ORIENTED_EDGE('',*,*,#177,.F.);
#288=ORIENTED_EDGE('',*,*,#180,.T.);
#289=ORIENTED_EDGE('',*,*,#183,.F.);
#290=ORIENTED_EDGE('',*,*,#186,.F.);
#291=ORIENTED_EDGE('',*,*,#189,.T.);
#292=ORIENTED_EDGE('',*,*,#192,.F.);
#293=ORIENTED_EDGE('',*,*,#195,.F.);
#294=ORIENTED_EDGE('',*,*,#198,.F.);
#295=ORIENTED_EDGE('',*,*,#201,.F.);
#296=PLANE('',#336);
#297=PLANE('',#340);
#298=PLANE('',#344);
#299=PLANE('',#348);
#300=PLANE('',#352);
#301=PLANE('',#359);
#302=PLANE('',#363);
#303=PLANE('',#367);
#304=PLANE('',#368);
#305=ADVANCED_FACE('',(#39),#296,.T.);
#306=ADVANCED_FACE('',(#40),#31,.F.);
#307=ADVANCED_FACE('',(#41),#297,.T.);
#308=ADVANCED_FACE('',(#42),#32,.T.);
#309=ADVANCED_FACE('',(#43),#298,.T.);
#310=ADVANCED_FACE('',(#44),#33,.T.);
#311=ADVANCED_FACE('',(#45),#299,.T.);
#312=ADVANCED_FACE('',(#46),#34,.T.);
#313=ADVANCED_FACE('',(#47),#300,.T.);
#314=ADVANCED_FACE('',(#48),#35,.F.);
#315=ADVANCED_FACE('',(#49),#36,.T.);
#316=ADVANCED_FACE('',(#50),#301,.T.);
#317=ADVANCED_FACE('',(#51),#37,.T.);
#318=ADVANCED_FACE('',(#52),#302,.T.);
#319=ADVANCED_FACE('',(#53),#38,.T.);
#320=ADVANCED_FACE('',(#54),#303,.T.);
#321=ADVANCED_FACE('',(#55),#304,.F.);
#322=CLOSED_SHELL('',(#305,#306,#307,#308,#309,#310,#311,#312,#313,#314,
#315,#316,#317,#318,#319,#320,#321));
#323=DERIVED_UNIT_ELEMENT(#325,1.);
#324=DERIVED_UNIT_ELEMENT(#564,-3.);
#325=(
MASS_UNIT()
NAMED_UNIT(*)
SI_UNIT(.KILO.,.GRAM.)
);
#326=DERIVED_UNIT((#323,#324));
#327=MEASURE_REPRESENTATION_ITEM('density measure',
POSITIVE_RATIO_MEASURE(7850.),#326);
#328=PROPERTY_DEFINITION_REPRESENTATION(#333,#330);
#329=PROPERTY_DEFINITION_REPRESENTATION(#334,#331);
#330=REPRESENTATION('material name',(#332),#561);
#331=REPRESENTATION('density',(#327),#561);
#332=DESCRIPTIVE_REPRESENTATION_ITEM('Steel','Steel');
#333=PROPERTY_DEFINITION('material property','material name',#571);
#334=PROPERTY_DEFINITION('material property','density of part',#571);
#335=AXIS2_PLACEMENT_3D('placement',#466,#369,#370);
#336=AXIS2_PLACEMENT_3D('',#467,#371,#372);
#337=AXIS2_PLACEMENT_3D('',#476,#377,#378);
#338=AXIS2_PLACEMENT_3D('',#478,#379,#380);
#339=AXIS2_PLACEMENT_3D('',#480,#381,#382);
#340=AXIS2_PLACEMENT_3D('',#482,#384,#385);
#341=AXIS2_PLACEMENT_3D('',#488,#389,#390);
#342=AXIS2_PLACEMENT_3D('',#490,#391,#392);
#343=AXIS2_PLACEMENT_3D('',#492,#393,#394);
#344=AXIS2_PLACEMENT_3D('',#494,#396,#397);
#345=AXIS2_PLACEMENT_3D('',#500,#401,#402);
#346=AXIS2_PLACEMENT_3D('',#502,#403,#404);
#347=AXIS2_PLACEMENT_3D('',#504,#405,#406);
#348=AXIS2_PLACEMENT_3D('',#506,#408,#409);
#349=AXIS2_PLACEMENT_3D('',#512,#413,#414);
#350=AXIS2_PLACEMENT_3D('',#514,#415,#416);
#351=AXIS2_PLACEMENT_3D('',#516,#417,#418);
#352=AXIS2_PLACEMENT_3D('',#518,#420,#421);
#353=AXIS2_PLACEMENT_3D('',#524,#425,#426);
#354=AXIS2_PLACEMENT_3D('',#526,#427,#428);
#355=AXIS2_PLACEMENT_3D('',#528,#429,#430);
#356=AXIS2_PLACEMENT_3D('',#530,#432,#433);
#357=AXIS2_PLACEMENT_3D('',#532,#434,#435);
#358=AXIS2_PLACEMENT_3D('',#534,#436,#437);
#359=AXIS2_PLACEMENT_3D('',#536,#439,#440);
#360=AXIS2_PLACEMENT_3D('',#542,#444,#445);
#361=AXIS2_PLACEMENT_3D('',#544,#446,#447);
#362=AXIS2_PLACEMENT_3D('',#546,#448,#449);
#363=AXIS2_PLACEMENT_3D('',#548,#451,#452);
#364=AXIS2_PLACEMENT_3D('',#554,#456,#457);
#365=AXIS2_PLACEMENT_3D('',#555,#458,#459);
#366=AXIS2_PLACEMENT_3D('',#556,#460,#461);
#367=AXIS2_PLACEMENT_3D('',#557,#462,#463);
#368=AXIS2_PLACEMENT_3D('',#558,#464,#465);
#369=DIRECTION('axis',(0.,0.,1.));
#370=DIRECTION('refdir',(1.,0.,0.));
#371=DIRECTION('center_axis',(0.,-1.,0.));
#372=DIRECTION('ref_axis',(1.,0.,0.));
#373=DIRECTION('',(1.,0.,0.));
#374=DIRECTION('',(0.,0.,1.));
#375=DIRECTION('',(1.,0.,0.));
#376=DIRECTION('',(0.,0.,1.));
#377=DIRECTION('center_axis',(0.,0.,1.));
#378=DIRECTION('ref_axis',(0.,1.,0.));
#379=DIRECTION('center_axis',(0.,0.,1.));
#380=DIRECTION('ref_axis',(0.,1.,0.));
#381=DIRECTION('center_axis',(0.,0.,-1.));
#382=DIRECTION('ref_axis',(0.,1.,0.));
#383=DIRECTION('',(0.,0.,1.));
#384=DIRECTION('center_axis',(0.913545457642601,-0.4067366430758,0.));
#385=DIRECTION('ref_axis',(0.4067366430758,0.913545457642601,0.));
#386=DIRECTION('',(0.4067366430758,0.913545457642601,0.));
#387=DIRECTION('',(0.4067366430758,0.913545457642601,0.));
#388=DIRECTION('',(0.,0.,1.));
#389=DIRECTION('center_axis',(0.,0.,1.));
#390=DIRECTION('ref_axis',(0.,-1.,0.));
#391=DIRECTION('center_axis',(0.,0.,1.));
#392=DIRECTION('ref_axis',(0.,-1.,0.));
#393=DIRECTION('center_axis',(0.,0.,1.));
#394=DIRECTION('ref_axis',(0.,-1.,0.));
#395=DIRECTION('',(0.,0.,1.));
#396=DIRECTION('center_axis',(8.78616314180714E-19,-1.,0.));
#397=DIRECTION('ref_axis',(1.,8.78616314180714E-19,0.));
#398=DIRECTION('',(1.,8.78616314180714E-19,0.));
#399=DIRECTION('',(1.,8.78616314180714E-19,0.));
#400=DIRECTION('',(0.,0.,1.));
#401=DIRECTION('center_axis',(0.,0.,1.));
#402=DIRECTION('ref_axis',(-1.,1.8503717077086E-16,0.));
#403=DIRECTION('center_axis',(0.,0.,1.));
#404=DIRECTION('ref_axis',(-1.,1.8503717077086E-16,0.));
#405=DIRECTION('center_axis',(0.,0.,1.));
#406=DIRECTION('ref_axis',(-1.,1.8503717077086E-16,0.));
#407=DIRECTION('',(0.,0.,1.));
#408=DIRECTION('center_axis',(-1.,0.,0.));
#409=DIRECTION('ref_axis',(0.,-1.,0.));
#410=DIRECTION('',(0.,1.,0.));
#411=DIRECTION('',(0.,-1.,0.));
#412=DIRECTION('',(0.,0.,1.));
#413=DIRECTION('center_axis',(0.,0.,1.));
#414=DIRECTION('ref_axis',(-1.05397172471082E-12,1.,0.));
#415=DIRECTION('center_axis',(0.,0.,1.));
#416=DIRECTION('ref_axis',(-1.05397172471082E-12,1.,0.));
#417=DIRECTION('center_axis',(0.,0.,1.));
#418=DIRECTION('ref_axis',(-1.05397172471082E-12,1.,0.));
#419=DIRECTION('',(0.,0.,1.));
#420=DIRECTION('center_axis',(-3.36217607171305E-12,1.,0.));
#421=DIRECTION('ref_axis',(-1.,-3.36217607171305E-12,0.));
#422=DIRECTION('',(-1.,-3.36217607171305E-12,0.));
#423=DIRECTION('',(-1.,-3.36217607171305E-12,0.));
#424=DIRECTION('',(0.,0.,1.));
#425=DIRECTION('center_axis',(0.,0.,1.));
#426=DIRECTION('ref_axis',(1.05424712887196E-12,-1.,0.));
#427=DIRECTION('center_axis',(0.,0.,1.));
#428=DIRECTION('ref_axis',(1.05424712887196E-12,-1.,0.));
#429=DIRECTION('center_axis',(0.,0.,-1.));
#430=DIRECTION('ref_axis',(1.05424712887196E-12,-1.,0.));
#431=DIRECTION('',(0.,0.,1.));
#432=DIRECTION('center_axis',(0.,0.,1.));
#433=DIRECTION('ref_axis',(0.,1.,0.));
#434=DIRECTION('center_axis',(0.,0.,1.));
#435=DIRECTION('ref_axis',(0.,1.,0.));
#436=DIRECTION('center_axis',(0.,0.,1.));
#437=DIRECTION('ref_axis',(0.,1.,0.));
#438=DIRECTION('',(0.,0.,1.));
#439=DIRECTION('center_axis',(0.,1.,0.));
#440=DIRECTION('ref_axis',(-1.,0.,0.));
#441=DIRECTION('',(-1.,0.,0.));
#442=DIRECTION('',(-1.,0.,0.));
#443=DIRECTION('',(0.,0.,1.));
#444=DIRECTION('center_axis',(0.,0.,1.));
#445=DIRECTION('ref_axis',(1.,0.,0.));
#446=DIRECTION('center_axis',(0.,0.,1.));
#447=DIRECTION('ref_axis',(1.,0.,0.));
#448=DIRECTION('center_axis',(0.,0.,1.));
#449=DIRECTION('ref_axis',(1.,0.,0.));
#450=DIRECTION('',(0.,0.,1.));
#451=DIRECTION('center_axis',(1.,0.,0.));
#452=DIRECTION('ref_axis',(0.,1.,0.));
#453=DIRECTION('',(0.,1.,0.));
#454=DIRECTION('',(0.,1.,0.));
#455=DIRECTION('',(0.,0.,1.));
#456=DIRECTION('center_axis',(0.,0.,1.));
#457=DIRECTION('ref_axis',(0.,-1.,0.));
#458=DIRECTION('center_axis',(0.,0.,1.));
#459=DIRECTION('ref_axis',(0.,-1.,0.));
#460=DIRECTION('center_axis',(0.,0.,1.));
#461=DIRECTION('ref_axis',(0.,-1.,0.));
#462=DIRECTION('center_axis',(0.,0.,1.));
#463=DIRECTION('ref_axis',(1.,0.,0.));
#464=DIRECTION('center_axis',(0.,0.,1.));
#465=DIRECTION('ref_axis',(1.,0.,0.));
#466=CARTESIAN_POINT('',(0.,0.,0.));
#467=CARTESIAN_POINT('Origin',(65.9258632532772,9.,0.));
#468=CARTESIAN_POINT('',(65.9258632532772,9.,0.));
#469=CARTESIAN_POINT('',(75.9776404736847,9.,0.));
#470=CARTESIAN_POINT('',(65.9258632532772,9.,0.));
#471=CARTESIAN_POINT('',(75.9776404736847,9.,200.));
#472=CARTESIAN_POINT('',(75.9776404736847,9.,0.));
#473=CARTESIAN_POINT('',(65.9258632532772,9.,200.));
#474=CARTESIAN_POINT('',(65.9258632532772,9.,200.));
#475=CARTESIAN_POINT('',(65.9258632532772,9.,0.));
#476=CARTESIAN_POINT('Origin',(65.9258632532772,6.,0.));
#477=CARTESIAN_POINT('',(63.1852268803494,7.2202099292274,0.));
#478=CARTESIAN_POINT('Origin',(65.9258632532772,6.,0.));
#479=CARTESIAN_POINT('',(63.1852268803494,7.2202099292274,200.));
#480=CARTESIAN_POINT('Origin',(65.9258632532772,6.,200.));
#481=CARTESIAN_POINT('',(63.1852268803494,7.2202099292274,0.));
#482=CARTESIAN_POINT('Origin',(60.7629958992431,1.7797900707726,0.));
#483=CARTESIAN_POINT('',(60.7629958992431,1.7797900707726,0.));
#484=CARTESIAN_POINT('',(60.7629958992431,1.7797900707726,0.));
#485=CARTESIAN_POINT('',(60.7629958992431,1.7797900707726,200.));
#486=CARTESIAN_POINT('',(60.7629958992431,1.7797900707726,200.));
#487=CARTESIAN_POINT('',(60.7629958992431,1.7797900707726,0.));
#488=CARTESIAN_POINT('Origin',(58.0223595263153,3.,0.));
#489=CARTESIAN_POINT('',(58.0223595263153,0.,0.));
#490=CARTESIAN_POINT('Origin',(58.0223595263153,3.,0.));
#491=CARTESIAN_POINT('',(58.0223595263153,0.,200.));
#492=CARTESIAN_POINT('Origin',(58.0223595263153,3.,200.));
#493=CARTESIAN_POINT('',(58.0223595263153,0.,0.));
#494=CARTESIAN_POINT('Origin',(-58.0223595263153,-5.2279645029167E-17,0.));
#495=CARTESIAN_POINT('',(-58.0223595263153,0.,0.));
#496=CARTESIAN_POINT('',(-58.0223595263153,-5.2279645029167E-17,0.));
#497=CARTESIAN_POINT('',(-58.0223595263153,0.,200.));
#498=CARTESIAN_POINT('',(-58.0223595263153,-5.2279645029167E-17,200.));
#499=CARTESIAN_POINT('',(-58.0223595263153,0.,0.));
#500=CARTESIAN_POINT('Origin',(-58.0223595263153,2.99999999999999,0.));
#501=CARTESIAN_POINT('',(-61.0223595263153,2.99999999999999,0.));
#502=CARTESIAN_POINT('Origin',(-58.0223595263153,2.99999999999999,0.));
#503=CARTESIAN_POINT('',(-61.0223595263153,2.99999999999999,200.));
#504=CARTESIAN_POINT('Origin',(-58.0223595263153,2.99999999999999,200.));
#505=CARTESIAN_POINT('',(-61.0223595263153,2.99999999999999,0.));
#506=CARTESIAN_POINT('Origin',(-61.0223595263153,5.49999999997268,0.));
#507=CARTESIAN_POINT('',(-61.0223595263153,5.49999999997268,0.));
#508=CARTESIAN_POINT('',(-61.0223595263153,2.99999999999999,0.));
#509=CARTESIAN_POINT('',(-61.0223595263153,5.49999999997268,200.));
#510=CARTESIAN_POINT('',(-61.0223595263153,2.99999999999999,200.));
#511=CARTESIAN_POINT('',(-61.0223595263153,5.49999999997268,0.));
#512=CARTESIAN_POINT('Origin',(-58.0223595263153,5.49999999997268,0.));
#513=CARTESIAN_POINT('',(-58.0223595263185,8.49999999997268,0.));
#514=CARTESIAN_POINT('Origin',(-58.0223595263153,5.49999999997268,0.));
#515=CARTESIAN_POINT('',(-58.0223595263185,8.49999999997268,200.));
#516=CARTESIAN_POINT('Origin',(-58.0223595263153,5.49999999997268,200.));
#517=CARTESIAN_POINT('',(-58.0223595263185,8.49999999997268,0.));
#518=CARTESIAN_POINT('Origin',(-44.8129824125697,8.50000000001709,0.));
#519=CARTESIAN_POINT('',(-44.8129824125697,8.50000000001709,0.));
#520=CARTESIAN_POINT('',(-44.8129824125697,8.50000000001709,0.));
#521=CARTESIAN_POINT('',(-44.8129824125697,8.50000000001709,200.));
#522=CARTESIAN_POINT('',(-44.8129824125697,8.50000000001709,200.));
#523=CARTESIAN_POINT('',(-44.8129824125697,8.50000000001709,0.));
#524=CARTESIAN_POINT('Origin',(-44.8129824125924,30.0000000000172,0.));
#525=CARTESIAN_POINT('',(-28.5584954287758,15.9272727272765,0.));
#526=CARTESIAN_POINT('Origin',(-44.8129824125924,30.0000000000172,0.));
#527=CARTESIAN_POINT('',(-28.5584954287757,15.9272727272765,200.));
#528=CARTESIAN_POINT('Origin',(-44.8129824125924,30.0000000000172,200.));
#529=CARTESIAN_POINT('',(-28.5584954287758,15.9272727272765,0.));
#530=CARTESIAN_POINT('Origin',(-24.0223595263153,12.,0.));
#531=CARTESIAN_POINT('',(-24.0223595263153,18.,0.));
#532=CARTESIAN_POINT('Origin',(-24.0223595263153,12.,0.));
#533=CARTESIAN_POINT('',(-24.0223595263153,18.,200.));
#534=CARTESIAN_POINT('Origin',(-24.0223595263153,12.,200.));
#535=CARTESIAN_POINT('',(-24.0223595263153,18.,0.));
#536=CARTESIAN_POINT('Origin',(75.9776404736867,18.,0.));
#537=CARTESIAN_POINT('',(75.9776404736867,18.,0.));
#538=CARTESIAN_POINT('',(75.9776404736867,18.,0.));
#539=CARTESIAN_POINT('',(75.9776404736867,18.,200.));
#540=CARTESIAN_POINT('',(75.9776404736867,18.,200.));
#541=CARTESIAN_POINT('',(75.9776404736867,18.,0.));
#542=CARTESIAN_POINT('Origin',(75.9776404736867,15.000000000002,0.));
#543=CARTESIAN_POINT('',(78.9776404736847,15.000000000002,0.));
#544=CARTESIAN_POINT('Origin',(75.9776404736867,15.000000000002,0.));
#545=CARTESIAN_POINT('',(78.9776404736847,15.000000000002,200.));
#546=CARTESIAN_POINT('Origin',(75.9776404736867,15.000000000002,200.));
#547=CARTESIAN_POINT('',(78.9776404736847,15.000000000002,0.));
#548=CARTESIAN_POINT('Origin',(78.9776404736847,12.,0.));
#549=CARTESIAN_POINT('',(78.9776404736847,12.,0.));
#550=CARTESIAN_POINT('',(78.9776404736847,12.,0.));
#551=CARTESIAN_POINT('',(78.9776404736847,12.,200.));
#552=CARTESIAN_POINT('',(78.9776404736847,12.,200.));
#553=CARTESIAN_POINT('',(78.9776404736847,12.,0.));
#554=CARTESIAN_POINT('Origin',(75.9776404736847,12.,0.));
#555=CARTESIAN_POINT('Origin',(75.9776404736847,12.,0.));
#556=CARTESIAN_POINT('Origin',(75.9776404736847,12.,200.));
#557=CARTESIAN_POINT('Origin',(8.97764047368468,9.,200.));
#558=CARTESIAN_POINT('Origin',(8.97764047368468,9.,0.));
#559=UNCERTAINTY_MEASURE_WITH_UNIT(LENGTH_MEASURE(0.01),#563,
'DISTANCE_ACCURACY_VALUE',
'Maximum model space distance between geometric entities at asserted c
onnectivities');
#560=UNCERTAINTY_MEASURE_WITH_UNIT(LENGTH_MEASURE(0.01),#563,
'DISTANCE_ACCURACY_VALUE',
'Maximum model space distance between geometric entities at asserted c
onnectivities');
#561=(
GEOMETRIC_REPRESENTATION_CONTEXT(3)
GLOBAL_UNCERTAINTY_ASSIGNED_CONTEXT((#559))
GLOBAL_UNIT_ASSIGNED_CONTEXT((#563,#565,#566))
REPRESENTATION_CONTEXT('','3D')
);
#562=(
GEOMETRIC_REPRESENTATION_CONTEXT(3)
GLOBAL_UNCERTAINTY_ASSIGNED_CONTEXT((#560))
GLOBAL_UNIT_ASSIGNED_CONTEXT((#563,#565,#566))
REPRESENTATION_CONTEXT('','3D')
);
#563=(
LENGTH_UNIT()
NAMED_UNIT(*)
SI_UNIT(.MILLI.,.METRE.)
);
#564=(
LENGTH_UNIT()
NAMED_UNIT(*)
SI_UNIT($,.METRE.)
);
#565=(
NAMED_UNIT(*)
PLANE_ANGLE_UNIT()
SI_UNIT($,.RADIAN.)
);
#566=(
NAMED_UNIT(*)
SI_UNIT($,.STERADIAN.)
SOLID_ANGLE_UNIT()
);
#567=SHAPE_DEFINITION_REPRESENTATION(#568,#569);
#568=PRODUCT_DEFINITION_SHAPE('',$,#571);
#569=SHAPE_REPRESENTATION('',(#335),#561);
#570=PRODUCT_DEFINITION_CONTEXT('part definition',#575,'design');
#571=PRODUCT_DEFINITION('PlatoWood 18x140 P03 (Standard rabat)',
'PlatoWood 18x140 P03 (Standard rabat) v6',#572,#570);
#572=PRODUCT_DEFINITION_FORMATION('',$,#577);
#573=PRODUCT_RELATED_PRODUCT_CATEGORY(
'PlatoWood 18x140 P03 (Standard rabat) v6',
'PlatoWood 18x140 P03 (Standard rabat) v6',(#577));
#574=APPLICATION_PROTOCOL_DEFINITION('international standard',
'automotive_design',2009,#575);
#575=APPLICATION_CONTEXT(
'Core Data for Automotive Mechanical Design Process');
#576=PRODUCT_CONTEXT('part definition',#575,'mechanical');
#577=PRODUCT('PlatoWood 18x140 P03 (Standard rabat)',
'PlatoWood 18x140 P03 (Standard rabat) v6',$,(#576));
#578=PRESENTATION_STYLE_ASSIGNMENT((#580));
#579=PRESENTATION_STYLE_ASSIGNMENT((#581));
#580=SURFACE_STYLE_USAGE(.BOTH.,#582);
#581=SURFACE_STYLE_USAGE(.BOTH.,#583);
#582=SURFACE_SIDE_STYLE('',(#584));
#583=SURFACE_SIDE_STYLE('',(#585));
#584=SURFACE_STYLE_FILL_AREA(#586);
#585=SURFACE_STYLE_FILL_AREA(#587);
#586=FILL_AREA_STYLE('Steel - Satin',(#588));
#587=FILL_AREA_STYLE('3D Mahogany - Unfinished',(#589));
#588=FILL_AREA_STYLE_COLOUR('Steel - Satin',#590);
#589=FILL_AREA_STYLE_COLOUR('3D Mahogany - Unfinished',#591);
#590=COLOUR_RGB('Steel - Satin',0.627450980392157,0.627450980392157,0.627450980392157);
#591=COLOUR_RGB('3D Mahogany - Unfinished',0.568627450980392,0.407843137254902,
0.313725490196078);
ENDSEC;
END-ISO-10303-21;
